  0
SECTION
  2
ENTITIES
  0
LINE
  8
APS_GEOMETRY
 10
-14.268752
 11
14.268752
 20
0.0
 21
0.0
  0
ARC
  8
APS_GEOMETRY
 10
14.268752
 20
0.5
 40
0.5
 50
270.0
 51
0.0
  0
LINE
  8
APS_GEOMETRY
 10
14.768752
 11
14.768752
 20
0.5
 21
16.037475
  0
ARC
  8
APS_GEOMETRY
 10
14.268752
 20
16.037475
 40
0.5
 50
0.0
 51
90.0
  0
LINE
  8
APS_GEOMETRY
 10
14.268752
 11
-14.268752
 20
16.537475
 21
16.537475
  0
ARC
  8
APS_GEOMETRY
 10
-14.268752
 20
16.037475
 40
0.5
 50
90.0
 51
180.0
  0
LINE
  8
APS_GEOMETRY
 10
-14.768752
 11
-14.768752
 20
16.037475
 21
0.5
  0
ARC
  8
APS_GEOMETRY
 10
-14.268752
 20
0.5
 40
0.5
 50
180.0
 51
270.0
  0
LINE
  8
CONSTRUCTION
 10
-15.968752
 11
15.968752
 20
-1.2
 21
-1.2
  0
LINE
  8
CONSTRUCTION
 10
15.968752
 11
15.968752
 20
-1.2
 21
17.737475
  0
LINE
  8
CONSTRUCTION
 10
15.968752
 11
-15.968752
 20
17.737475
 21
17.737475
  0
LINE
  8
CONSTRUCTION
 10
-15.968752
 11
-15.968752
 20
17.737475
 21
-1.2
  0
CIRCLE
  8
APS_GEOMETRY
 10
-16.613416
 20
15.257069
 40
0.125
  0
CIRCLE
  8
APS_GEOMETRY
 10
-16.613416
 20
1.647983
 40
0.125
  0
CIRCLE
  8
APS_GEOMETRY
 10
16.613416
 20
15.257069
 40
0.125
  0
CIRCLE
  8
APS_GEOMETRY
 10
16.613416
 20
1.647983
 40
0.125
  0
CIRCLE
  8
APS_GEOMETRY
 10
2.199952
 20
18.362475
 40
0.125
  0
CIRCLE
  8
APS_GEOMETRY
 10
-2.200048
 20
18.362475
 40
0.125
  0
CIRCLE
  8
APS_GEOMETRY
 10
0.0
 20
18.926451
 40
0.688976
  0
TEXT
  8
TEXT
 10
-3.272765
 20
6.205704
 30
0.0
 40
2.0
 50
0.0
  1
lof500
  0
TEXT
  8
TEXT
 10
-3.429845
 20
1.859818
 30
0.0
 40
2.0
 50
0.0
  1
1/8 oh
  0
ENDSEC
  0
EOF
